Company
by Megan Slankard
from: Lady is a Pirate


Company
Megan Slankard


Gm7  Am7  Dm7 (throughout except where noted)
  
As I sat the moon started rising
I'm swinging on the rocking chair
It's kinda dark on the horizon
But that's only 'cause the sun ain't there
As I sat the moon started rising
And I remembered like it were yesterday
It was kinda dark beyond the horizon
He had come to take me away

I don't know, I don't know of course
I don't know I don't know why life is so short

As I stood the moon started rounding
She saw him dismounting his horse
In the dark he led himself by starlight
To the porch and from the far lights of the storm
And as she stood the moon started rounding
Her heart started pounding like a fist on the door
From the dark she heard her name that he was saying
And that's what she was waiting for

I don't know, I don't know if it's tame enough there
I don't know, if I go, will I miss it out here

Gm7   Am7/F   Dm7/E   Bbmaj7   C9  (see note below)
She would go but doubt slowly killed it
Where her love just could not fill it up again
Gm7   Am7/F   Dm7/E   Bbmaj7   C9
And he just knew he didn't have to ask her
He did not run it past her if this were the end

(lead)
Gm7  Am7  Dm7
----------------------------------------------
----------8/10---10-11-10--8-10-8--6-8-6--3-3-
--------7-------------------------------------
-5--7-8---------------------------------------
----------------------------------------------
----------------------------------------------

--------5---6--8---10--3---13-10--------------
----3-6-----8--10--11--3---------13-11--------
--3------------------------------------12-12--
----------------------------------------------
----------------------------------------------
----------------------------------------------

Gm7  Am7  Dm7
So she walked here hair flowing behind her
As a gentle reminder that she was only a child
And it was dark but he gently kissed her
He knows he won't forget her with a hint of a smile
And as she cried he cast back a shadow behind him
And it did remind him that there were stars up there too
And it was dark but he gently kissed her
I'm so sorry I could not accompany you

I don't know, I don't know why it just wouldn't be
I don't know I don't know why I couldn't be company
I don't know I don't know
I don't know I don't know
But why couldn't you just stay here with me? 


note:
Gm7   Am7/F   Dm7/E   Bbmaj7   C9 
This is just a guess but I'm not that happy with the sound so it's probably something else. 
The bass line = G  F  E  Bb  C

***This represents my own interpretation of the music. 
Comments and suggestions for improvement are appreciated.  
Send to faust.muzic *at* gmail *dot* com
- Chris Faust